Infinity Art studio
หากคุณสมัครเว็บบอ์ดของเรา เราจะให้สิทธิในสิ่งต่างๆ
มากกว่าไม่ได้สมัคร เราอัพเดตทุกวัน
โดยเฉพาะตอนนี้เราก็มี ระบบเครดิต ระบบขอบคุณ
และยังสามารถเชื่อมต่อผ่านเฟสบุคได้ด้วย
ภายในบอร์ดมีข้อมูลที่คนนอกไม่ควรได้รับรู้
หากไม่สมัครสมาชิกแต่ได้ข้อมูลไป อาจเกิดบางอย่างขึ้นกับคุณ
แต่รับรองว่าถ้าคุณสมัครสมาชิกแล้วคุณจะปลอดภัย
เราเตือนคุณแล้ว
ขอบคุณครับ
หากไม่ต้องการให้แสดง กด Donot display again



Infinity Art studio

อินฟินนิที อาร์ท สตูดิโอ
 
บ้านบ้าน  หน้าข่าวกิจกรรมหน้าข่าวกิจกรรม  CalendarCalendar  ช่วยเหลือช่วยเหลือ  ค้นหาค้นหา  รายชื่อสมาชิกรายชื่อสมาชิก  กลุ่มผู้ใช้กลุ่มผู้ใช้  สมัครสมาชิก(Register)สมัครสมาชิก(Register)  เข้าสู่ระบบ(Log in)เข้าสู่ระบบ(Log in)  
ลบยูสเซอร์ที่สมัครมานานกว่า 3 เดือนแล้วไม่โพสไปแล้วนะครับ หากผู้ใดประสงค์จะกู้คืนรีบส่ง้มลมาก่อนวันที่ 1 มกราคม 2554 นี้นะครับ

Share | 
 

 ต้าๆ resonance กีต้าร์

อ่านหัวข้อก่อนหน้า อ่านหัวข้อถัดไป Go down 
ผู้ตั้งข้อความ
bleachgrapezaza
น้องใหม่ IF art
น้องใหม่ IF art
avatar

จำนวนข้อความ : 17
IF เครดิต : 5319
วันที่เข้าร่วม : 26/10/2010

ตั้งหัวข้อเรื่อง: ต้าๆ resonance กีต้าร์   Fri 26 Aug - 9:35

Resonance (Soul Eater OP 1) - T.M. Revolution
-------------------------------------------------------------------------------
Tabbed by: Nihilo90

Tuning: Standard

Main riff:

(repeat as necessary)

e|---------------------------------------------------------------------------|
B|---------------------------------------------------------------------------|
G|---------------------------------------------------------------------------|
D|---------------------1-2-1-------------------------------------------------|
A|-------2----2-4--2-4-------4-2---------------------------------------------|
E|-5-4-5----5----------------------------------------------------------------|

High bridge:

(let notes ring) (let notes ring)

e|-15----18----16----13-15-----------15----18----16----18-15-----------------|
B|---------------------------------------------------------------------------|
G|---------------------------------------------------------------------------|
D|---------------------------------------------------------------------------|
A|---------------------------------------------------------------------------|
E|---------------------------------------------------------------------------|

Second main riff (plays during High bridge and afterwards):

(repeat as necessary)

e|---------------------------------------------------------------------------|
B|---------------------------------------------------------------------------|
G|---------------------------------------------------------------------------|
D|---------------------------------------------------------------------------|
A|-3-3-6-3-3-3-6-3-6-6-4-6----4-4-6-4-4-2-4----4-4-6-3-3-6-3-3-3-6-3---------|
E|---------------------------------------------------------------------------|

Low bridge (towards the end in the SE intro)

e|---------------------------------------------------------------------------|
B|---------------------------------------------------------------------------|
G|---------------------------------------------------------------------------|
D|---------------------------------------------------------------------------|
A|-------2---2-4---6b7r6-4-2-------2---2-------------------------------------|
E|-5-0-5---2-----4-----------5-0-5---2----------------------------------------|


| / slide up
| \ slide down
| h hammer-on
| p pull-off
| b bend to
| r release to
| ~ vibrato
| + harmonic
| x Mute note
ขึ้นไปข้างบน Go down
bleachgrapezaza
น้องใหม่ IF art
น้องใหม่ IF art
avatar

จำนวนข้อความ : 17
IF เครดิต : 5319
วันที่เข้าร่วม : 26/10/2010

ตั้งหัวข้อเรื่อง: Re: ต้าๆ resonance กีต้าร์   Fri 26 Aug - 9:41

ไครเอาไปเล่นบอกด้วยอยากฟังคนเล่นได้
ขึ้นไปข้างบน Go down
bleachgrapezaza
น้องใหม่ IF art
น้องใหม่ IF art
avatar

จำนวนข้อความ : 17
IF เครดิต : 5319
วันที่เข้าร่วม : 26/10/2010

ตั้งหัวข้อเรื่อง: Re: ต้าๆ resonance กีต้าร์   Fri 26 Aug - 9:42

ต้าอยุป่าว
ขึ้นไปข้างบน Go down
 
ต้าๆ resonance กีต้าร์
อ่านหัวข้อก่อนหน้า อ่านหัวข้อถัดไป ขึ้นไปข้างบน 
หน้า 1 จาก 1

Permissions in this forum:คุณไม่สามารถพิมพ์ตอบ
Infinity Art studio :: The Magical Musics-
ไปที่: